ISO-10303-21;
HEADER;
FILE_DESCRIPTION (( 'STEP AP203' ),
    '1' );
FILE_NAME ('482523535_c_1.STEP',
    '2022-11-28T01:38:05',
    ( '' ),
    ( '' ),
    'SwSTEP 2.0',
    'SolidWorks 2014',
    '' );
FILE_SCHEMA (( 'CONFIG_CONTROL_DESIGN' ));
ENDSEC;

DATA;
#1 = DIRECTION ( 'NONE',  ( 0.0000000000000000000, 0.0000000000000000000, 1.000000000000000000 ) ) ;
#2 = LOCAL_TIME ( 17, 38, 5.000000000000000000, #187 ) ;
#3 = FACE_OUTER_BOUND ( 'NONE', #137, .T. ) ;
#4 = EDGE_LOOP ( 'NONE', ( #295, #193, #362, #359 ) ) ;
#5 = CARTESIAN_POINT ( 'NONE',  ( -14.00000000000000000, -5.299999999999963400, 27.00000000000000400 ) ) ;
#6 = DATE_TIME_ROLE ( 'creation_date' ) ;
#7 = DIRECTION ( 'NONE',  ( 1.000000000000000000, 0.0000000000000000000, 0.0000000000000000000 ) ) ;
#8 = ORIENTED_EDGE ( 'NONE', *, *, #199, .F. ) ;
#9 = CARTESIAN_POINT ( 'NONE',  ( 14.00000000000000000, 0.0000000000000000000, -1.065814103639999900E-014 ) ) ;
#10 = PERSON_AND_ORGANIZATION_ROLE ( 'creator' ) ;
#11 = EDGE_LOOP ( 'NONE', ( #317, #305, #246, #331 ) ) ;
#12 = ORIENTED_EDGE ( 'NONE', *, *, #104, .F. ) ;
#13 = APPROVAL_STATUS ( 'not_yet_approved' ) ;
#14 = EDGE_CURVE ( 'NONE', #65, #263, #116, .T. ) ;
#15 = UNCERTAINTY_MEASURE_WITH_UNIT (LENGTH_MEASURE( 1.000000000000000100E-005 ), #325, 'distance_accuracy_value', 'NONE');
#16 = LINE ( 'NONE', #30, #164 ) ;
#17 = LINE ( 'NONE', #361, #168 ) ;
#18 = CARTESIAN_POINT ( 'NONE',  ( 14.00000000000000000, 1.445919139244181900E-111, 30.00000000000000000 ) ) ;
#19 = ORIENTED_EDGE ( 'NONE', *, *, #169, .F. ) ;
#20 = ORIENTED_EDGE ( 'NONE', *, *, #127, .T. ) ;
#21 = CARTESIAN_POINT ( 'NONE',  ( -14.00000000000000000, 0.0000000000000000000, -1.065814103639999900E-014 ) ) ;
#22 = EDGE_CURVE ( 'NONE', #272, #197, #334, .T. ) ;
#23 = CALENDAR_DATE ( 2022, 27, 11 ) ;
#24 = DESIGN_CONTEXT ( 'detailed design', #350, 'design' ) ;
#25 = VECTOR ( 'NONE', #87, 1000.000000000000000 ) ;
#26 = DIRECTION ( 'NONE',  ( 1.000000000000000000, 0.0000000000000000000, -0.0000000000000000000 ) ) ;
#27 = DIRECTION ( 'NONE',  ( 1.000000000000000000, 0.0000000000000000000, -0.0000000000000000000 ) ) ;
#28 = COORDINATED_UNIVERSAL_TIME_OFFSET ( 8, 0, .BEHIND. ) ;
#29 = VERTEX_POINT ( 'NONE', #201 ) ;
#30 = CARTESIAN_POINT ( 'NONE',  ( 14.00000000000000000, 0.0000000000000000000, -1.065814103639999900E-014 ) ) ;
#31 = DIRECTION ( 'NONE',  ( 0.0000000000000000000, 0.0000000000000000000, 1.000000000000000000 ) ) ;
#32 = PLANE ( 'NONE',  #82 ) ;
#33 = EDGE_CURVE ( 'NONE', #272, #92, #213, .T. ) ;
#34 = DIRECTION ( 'NONE',  ( 1.000000000000000000, -1.224646799147350000E-016, 0.0000000000000000000 ) ) ;
#35 = APPLICATION_PROTOCOL_DEFINITION ( 'international standard', 'config_control_design', 1994, #267 ) ;
#36 = APPROVAL_STATUS ( 'not_yet_approved' ) ;
#37 = CARTESIAN_POINT ( 'NONE',  ( 14.00000000000000000, 1.124819836996387200E-032, 27.00000000000000000 ) ) ;
#38 = VECTOR ( 'NONE', #47, 1000.000000000000000 ) ;
#39 = ORIENTED_EDGE ( 'NONE', *, *, #14, .T. ) ;
#40 = ADVANCED_FACE ( 'NONE', ( #327 ), #340, .F. ) ;
#41 = APPROVAL_PERSON_ORGANIZATION ( #135, #320, #190 ) ;
#42 = FACE_OUTER_BOUND ( 'NONE', #241, .T. ) ;
#43 = ORIENTED_EDGE ( 'NONE', *, *, #96, .T. ) ;
#44 = ADVANCED_FACE ( 'NONE', ( #3 ), #336, .T. ) ;
#45 = LINE ( 'NONE', #119, #129 ) ;
#46 = ORIENTED_EDGE ( 'NONE', *, *, #85, .F. ) ;
#47 = DIRECTION ( 'NONE',  ( 5.659263422131116500E-017, 0.7071067811865483500, 0.7071067811865468000 ) ) ;
#48 = PERSON_AND_ORGANIZATION ( #69, #281 ) ;
#49 = CARTESIAN_POINT ( 'NONE',  ( -14.00000000000000400, -30.00000000000000000, 8.325187540310990300 ) ) ;
#50 = VECTOR ( 'NONE', #369, 1000.000000000000000 ) ;
#51 = EDGE_CURVE ( 'NONE', #248, #60, #80, .T. ) ;
#52 = ORIENTED_EDGE ( 'NONE', *, *, #33, .T. ) ;
#53 = DIRECTION ( 'NONE',  ( 8.659560562354914400E-017, 0.7071067811865475700, -0.7071067811865475700 ) ) ;
#54 = ADVANCED_BREP_SHAPE_REPRESENTATION ( '482523535_c_1', ( #285, #277 ), #217 ) ;
#55 = CARTESIAN_POINT ( 'NONE',  ( -14.00000000000000000, 0.0000000000000000000, -1.065814103639999900E-014 ) ) ;
#56 = CC_DESIGN_SECURITY_CLASSIFICATION ( #329, ( #239 ) ) ;
#57 = LINE ( 'NONE', #367, #172 ) ;
#58 = CARTESIAN_POINT ( 'NONE',  ( 14.00000000000000000, -30.00000000000000000, -1.065814103639999900E-014 ) ) ;
#59 = ORIENTED_EDGE ( 'NONE', *, *, #235, .F. ) ;
#60 = VERTEX_POINT ( 'NONE', #18 ) ;
#61 = DIRECTION ( 'NONE',  ( -1.224646799147350000E-016, -1.000000000000000000, 0.0000000000000000000 ) ) ;
#62 = DIRECTION ( 'NONE',  ( -1.224646799147350000E-016, -1.000000000000000000, 0.0000000000000000000 ) ) ;
#63 = LINE ( 'NONE', #342, #50 ) ;
#64 = ORIENTED_EDGE ( 'NONE', *, *, #235, .T. ) ;
#65 = VERTEX_POINT ( 'NONE', #112 ) ;
#66 = CARTESIAN_POINT ( 'NONE',  ( -14.00000000000000000, 0.0000000000000000000, 27.00000000000000000 ) ) ;
#67 = PLANE ( 'NONE',  #250 ) ;
#68 = EDGE_CURVE ( 'NONE', #263, #144, #358, .T. ) ;
#69 = PERSON ( 'UNSPECIFIED', 'UNSPECIFIED', 'UNSPECIFIED', ('UNSPECIFIED'), ('UNSPECIFIED'), ('UNSPECIFIED') ) ;
#70 = VECTOR ( 'NONE', #185, 1000.000000000000000 ) ;
#71 = DIRECTION ( 'NONE',  ( 1.000000000000000000, 0.0000000000000000000, -0.0000000000000000000 ) ) ;
#72 = LINE ( 'NONE', #179, #245 ) ;
#73 = DIRECTION ( 'NONE',  ( 0.0000000000000000000, 0.0000000000000000000, -1.000000000000000000 ) ) ;
#74 = EDGE_CURVE ( 'NONE', #29, #354, #17, .T. ) ;
#75 = EDGE_CURVE ( 'NONE', #279, #289, #165, .T. ) ;
#76 = VECTOR ( 'NONE', #237, 1000.000000000000000 ) ;
#77 = LINE ( 'NONE', #204, #182 ) ;
#78 = CARTESIAN_POINT ( 'NONE',  ( -14.00000000000000000, -5.299999999999971400, 27.00000000000001800 ) ) ;
#79 = LINE ( 'NONE', #58, #224 ) ;
#80 = LINE ( 'NONE', #83, #253 ) ;
#81 = ORIENTED_EDGE ( 'NONE', *, *, #149, .F. ) ;
#82 = AXIS2_PLACEMENT_3D ( 'NONE', #269, #236, #34 ) ;
#83 = CARTESIAN_POINT ( 'NONE',  ( 14.00000000000000000, 0.0000000000000000000, 30.00000000000000000 ) ) ;
#84 = FACE_OUTER_BOUND ( 'NONE', #4, .T. ) ;
#85 = EDGE_CURVE ( 'NONE', #207, #279, #77, .T. ) ;
#86 = VECTOR ( 'NONE', #208, 1000.000000000000000 ) ;
#87 = DIRECTION ( 'NONE',  ( -0.0000000000000000000, 0.0000000000000000000, 1.000000000000000000 ) ) ;
#88 = CARTESIAN_POINT ( 'NONE',  ( 14.00000000000000000, -27.00000000000000000, -1.065814103639999900E-014 ) ) ;
#89 = PERSON_AND_ORGANIZATION ( #69, #281 ) ;
#90 = DIRECTION ( 'NONE',  ( -0.0000000000000000000, -0.0000000000000000000, -1.000000000000000000 ) ) ;
#91 = LINE ( 'NONE', #287, #25 ) ;
#92 = VERTEX_POINT ( 'NONE', #205 ) ;
#93 = CC_DESIGN_DATE_AND_TIME_ASSIGNMENT ( #251, #273, ( #329 ) ) ;
#94 = DIRECTION ( 'NONE',  ( 0.0000000000000000000, -0.7071067811865474600, -0.7071067811865474600 ) ) ;
#95 = PRODUCT_DEFINITION_SHAPE ( 'NONE', 'NONE',  #139 ) ;
#96 = EDGE_CURVE ( 'NONE', #354, #65, #154, .T. ) ;
#97 = VECTOR ( 'NONE', #254, 1000.000000000000000 ) ;
#98 = CARTESIAN_POINT ( 'NONE',  ( -14.00000000000000000, 2.249639673992777100E-032, 27.00000000000000000 ) ) ;
#99 = EDGE_CURVE ( 'NONE', #197, #65, #160, .T. ) ;
#100 =( NAMED_UNIT ( * ) PLANE_ANGLE_UNIT ( ) SI_UNIT ( $, .RADIAN. ) );
#101 = APPROVAL_DATE_TIME ( #262, #161 ) ;
#102 = LINE ( 'NONE', #315, #316 ) ;
#103 = ORIENTED_EDGE ( 'NONE', *, *, #203, .F. ) ;
#104 = EDGE_CURVE ( 'NONE', #92, #29, #102, .T. ) ;
#105 = SHAPE_DEFINITION_REPRESENTATION ( #95, #54 ) ;
#106 = ADVANCED_FACE ( 'NONE', ( #233 ), #291, .T. ) ;
#107 = EDGE_CURVE ( 'NONE', #144, #349, #72, .T. ) ;
#108 = COORDINATED_UNIVERSAL_TIME_OFFSET ( 8, 0, .BEHIND. ) ;
#109 = ORIENTED_EDGE ( 'NONE', *, *, #22, .F. ) ;
#110 = DIRECTION ( 'NONE',  ( -1.000000000000000000, 6.123233995736752500E-017, -6.123233995736752500E-017 ) ) ;
#111 = DATE_AND_TIME ( #343, #2 ) ;
#112 = CARTESIAN_POINT ( 'NONE',  ( -14.00000000000000200, -29.99999999999999300, 8.325187540310981400 ) ) ;
#113 = CC_DESIGN_APPROVAL ( #258, ( #239 ) ) ;
#114 = PLANE ( 'NONE',  #338 ) ;
#115 = DIRECTION ( 'NONE',  ( 0.0000000000000000000, -0.0000000000000000000, -1.000000000000000000 ) ) ;
#116 = LINE ( 'NONE', #49, #38 ) ;
#117 = ORIENTED_EDGE ( 'NONE', *, *, #274, .T. ) ;
#118 = DIRECTION ( 'NONE',  ( -0.0000000000000000000, -0.0000000000000000000, -1.000000000000000000 ) ) ;
#119 = CARTESIAN_POINT ( 'NONE',  ( 14.00000000000000000, -8.325187540310938800, 30.00000000000000000 ) ) ;
#120 = DIRECTION ( 'NONE',  ( 0.0000000000000000000, 0.0000000000000000000, 1.000000000000000000 ) ) ;
#121 = PERSON_AND_ORGANIZATION ( #69, #281 ) ;
#122 = FACE_OUTER_BOUND ( 'NONE', #11, .T. ) ;
#123 = MECHANICAL_CONTEXT ( 'NONE', #267, 'mechanical' ) ;
#124 = EDGE_LOOP ( 'NONE', ( #136, #323, #264, #344 ) ) ;
#125 = CC_DESIGN_PERSON_AND_ORGANIZATION_ASSIGNMENT ( #238, #10, ( #139 ) ) ;
#126 = CARTESIAN_POINT ( 'NONE',  ( -14.00000000000000200, -26.99999999999999600, -1.065814103639999900E-014 ) ) ;
#127 = EDGE_CURVE ( 'NONE', #92, #207, #91, .T. ) ;
#128 = APPLICATION_PROTOCOL_DEFINITION ( 'international standard', 'config_control_design', 1994, #350 ) ;
#129 = VECTOR ( 'NONE', #26, 1000.000000000000000 ) ;
#130 = VECTOR ( 'NONE', #152, 1000.000000000000000 ) ;
#131 = ORIENTED_EDGE ( 'NONE', *, *, #363, .T. ) ;
#132 = ORIENTED_EDGE ( 'NONE', *, *, #74, .F. ) ;
#133 = ADVANCED_FACE ( 'NONE', ( #151 ), #114, .F. ) ;
#134 = CC_DESIGN_PERSON_AND_ORGANIZATION_ASSIGNMENT ( #265, #322, ( #239 ) ) ;
#135 = PERSON_AND_ORGANIZATION ( #69, #281 ) ;
#136 = ORIENTED_EDGE ( 'NONE', *, *, #363, .F. ) ;
#137 = EDGE_LOOP ( 'NONE', ( #309, #131, #230, #222, #308, #313, #39, #214 ) ) ;
#138 = EDGE_CURVE ( 'NONE', #335, #349, #57, .T. ) ;
#139 = PRODUCT_DEFINITION ( 'UNKNOWN', '', #239, #24 ) ;
#140 = LINE ( 'NONE', #209, #70 ) ;
#141 = VERTEX_POINT ( 'NONE', #181 ) ;
#142 = LOCAL_TIME ( 17, 38, 5.000000000000000000, #326 ) ;
#143 = CARTESIAN_POINT ( 'NONE',  ( -14.00000000000000000, -29.99999999999997900, 8.325187540310963600 ) ) ;
#144 = VERTEX_POINT ( 'NONE', #260 ) ;
#145 = ORIENTED_EDGE ( 'NONE', *, *, #96, .F. ) ;
#146 = AXIS2_PLACEMENT_3D ( 'NONE', #364, #53, #310 ) ;
#147 = CARTESIAN_POINT ( 'NONE',  ( -14.00000000000000200, -8.325187540310938800, 30.00000000000000000 ) ) ;
#148 = LINE ( 'NONE', #352, #306 ) ;
#149 = EDGE_CURVE ( 'NONE', #289, #141, #288, .T. ) ;
#150 = CARTESIAN_POINT ( 'NONE',  ( 14.00000000000000000, 1.156735311395345500E-110, 30.00000000000000000 ) ) ;
#151 = FACE_OUTER_BOUND ( 'NONE', #328, .T. ) ;
#152 = DIRECTION ( 'NONE',  ( 1.000000000000000000, -1.836676017326760000E-048, -2.754572824566213800E-080 ) ) ;
#153 = AXIS2_PLACEMENT_3D ( 'NONE', #347, #244, #159 ) ;
#154 = LINE ( 'NONE', #143, #86 ) ;
#155 = DIRECTION ( 'NONE',  ( 0.0000000000000000000, 0.0000000000000000000, 1.000000000000000000 ) ) ;
#156 = DIRECTION ( 'NONE',  ( -1.000000000000000000, 0.0000000000000000000, -0.0000000000000000000 ) ) ;
#157 = PLANE ( 'NONE',  #212 ) ;
#158 = VECTOR ( 'NONE', #115, 1000.000000000000000 ) ;
#159 = DIRECTION ( 'NONE',  ( -1.224646799147350000E-016, -1.000000000000000000, 0.0000000000000000000 ) ) ;
#160 = LINE ( 'NONE', #178, #368 ) ;
#161 = APPROVAL ( #13, 'UNSPECIFIED' ) ;
#162 = DIRECTION ( 'NONE',  ( 1.836676017326760000E-048, 1.000000000000000000, 1.499759782661849900E-032 ) ) ;
#163 = LOCAL_TIME ( 17, 38, 5.000000000000000000, #333 ) ;
#164 = VECTOR ( 'NONE', #90, 1000.000000000000000 ) ;
#165 = LINE ( 'NONE', #78, #218 ) ;
#166 = ORIENTED_EDGE ( 'NONE', *, *, #203, .T. ) ;
#167 = APPROVAL_PERSON_ORGANIZATION ( #121, #161, #355 ) ;
#168 = VECTOR ( 'NONE', #280, 1000.000000000000000 ) ;
#169 = EDGE_CURVE ( 'NONE', #144, #60, #278, .T. ) ;
#170 = DIRECTION ( 'NONE',  ( 1.000000000000000000, -1.224646799147350000E-016, 0.0000000000000000000 ) ) ;
#171 = DATE_AND_TIME ( #23, #180 ) ;
#172 = VECTOR ( 'NONE', #292, 1000.000000000000000 ) ;
#173 = ORIENTED_EDGE ( 'NONE', *, *, #14, .F. ) ;
#174 = PRODUCT_RELATED_PRODUCT_CATEGORY ( 'detail', '', ( #357 ) ) ;
#175 = DIRECTION ( 'NONE',  ( -1.000000000000000000, 1.224646799147350000E-016, 0.0000000000000000000 ) ) ;
#176 = EDGE_LOOP ( 'NONE', ( #64, #109, #52, #296 ) ) ;
#177 = DIRECTION ( 'NONE',  ( 0.0000000000000000000, -0.7071067811865474600, -0.7071067811865474600 ) ) ;
#178 = CARTESIAN_POINT ( 'NONE',  ( -14.00000000000000400, -30.00000000000000000, -1.065814103639999900E-014 ) ) ;
#179 = CARTESIAN_POINT ( 'NONE',  ( -14.00000000000000000, 0.0000000000000000000, -1.065814103639999900E-014 ) ) ;
#180 = LOCAL_TIME ( 17, 38, 5.000000000000000000, #28 ) ;
#181 = CARTESIAN_POINT ( 'NONE',  ( -14.00000000000000200, -27.00000000000000000, 5.299999999999988300 ) ) ;
#182 = VECTOR ( 'NONE', #307, 1000.000000000000100 ) ;
#183 = CARTESIAN_POINT ( 'NONE',  ( -14.00000000000000200, -30.00000000000000000, -1.065814103639999900E-014 ) ) ;
#184 = EDGE_CURVE ( 'NONE', #141, #207, #63, .T. ) ;
#185 = DIRECTION ( 'NONE',  ( -0.0000000000000000000, 1.000000000000000000, 0.0000000000000000000 ) ) ;
#186 = CARTESIAN_POINT ( 'NONE',  ( 14.00000000000000200, -29.99999999999999300, 8.325187540310983200 ) ) ;
#187 = COORDINATED_UNIVERSAL_TIME_OFFSET ( 8, 0, .BEHIND. ) ;
#188 = LINE ( 'NONE', #66, #76 ) ;
#189 = PERSON_AND_ORGANIZATION_ROLE ( 'design_supplier' ) ;
#190 = APPROVAL_ROLE ( '' ) ;
#191 = PERSON_AND_ORGANIZATION ( #69, #281 ) ;
#192 = VECTOR ( 'NONE', #259, 1000.000000000000000 ) ;
#193 = ORIENTED_EDGE ( 'NONE', *, *, #199, .T. ) ;
#194 = CC_DESIGN_PERSON_AND_ORGANIZATION_ASSIGNMENT ( #191, #319, ( #357 ) ) ;
#195 = EDGE_LOOP ( 'NONE', ( #19, #271, #166, #257 ) ) ;
#196 = ADVANCED_FACE ( 'NONE', ( #122 ), #231, .F. ) ;
#197 = VERTEX_POINT ( 'NONE', #183 ) ;
#198 = EDGE_LOOP ( 'NONE', ( #103, #173, #145, #226 ) ) ;
#199 = EDGE_CURVE ( 'NONE', #60, #335, #16, .T. ) ;
#200 = DATE_AND_TIME ( #311, #293 ) ;
#201 = CARTESIAN_POINT ( 'NONE',  ( 13.99999999999999800, -30.00000000000000000, -1.065814103639999900E-014 ) ) ;
#202 = ORIENTED_EDGE ( 'NONE', *, *, #184, .F. ) ;
#203 = EDGE_CURVE ( 'NONE', #263, #248, #45, .T. ) ;
#204 = CARTESIAN_POINT ( 'NONE',  ( 14.00000000000001400, -27.00000000000000000, 5.299999999999991800 ) ) ;
#205 = CARTESIAN_POINT ( 'NONE',  ( 13.99999999999999800, -27.00000000000000000, -1.065814103639999900E-014 ) ) ;
#206 = VECTOR ( 'NONE', #94, 1000.000000000000100 ) ;
#207 = VERTEX_POINT ( 'NONE', #294 ) ;
#208 = DIRECTION ( 'NONE',  ( -1.000000000000000000, 6.123233995736752500E-017, -6.123233995736752500E-017 ) ) ;
#209 = CARTESIAN_POINT ( 'NONE',  ( 14.00000000000000000, -30.00000000000000000, 27.00000000000000000 ) ) ;
#210 = CARTESIAN_POINT ( 'NONE',  ( -14.00000000000000000, -27.00000000000000000, 5.299999999999990100 ) ) ;
#211 = APPROVAL_DATE_TIME ( #111, #258 ) ;
#212 = AXIS2_PLACEMENT_3D ( 'NONE', #9, #73, #156 ) ;
#213 = LINE ( 'NONE', #227, #360 ) ;
#214 = ORIENTED_EDGE ( 'NONE', *, *, #68, .T. ) ;
#215 = PERSON_AND_ORGANIZATION_ROLE ( 'classification_officer' ) ;
#216 =( NAMED_UNIT ( * ) SI_UNIT ( $, .STERADIAN. ) SOLID_ANGLE_UNIT ( ) );
#217 =( GEOMETRIC_REPRESENTATION_CONTEXT ( 3 ) GLOBAL_UNCERTAINTY_ASSIGNED_CONTEXT ( ( #15 ) ) GLOBAL_UNIT_ASSIGNED_CONTEXT ( ( #325, #100, #216 ) ) REPRESENTATION_CONTEXT ( 'NONE', 'WORKASPACE' ) );
#218 = VECTOR ( 'NONE', #110, 1000.000000000000000 ) ;
#219 = APPROVAL_ROLE ( '' ) ;
#220 = APPROVAL_DATE_TIME ( #200, #320 ) ;
#221 = ORIENTED_EDGE ( 'NONE', *, *, #74, .T. ) ;
#222 = ORIENTED_EDGE ( 'NONE', *, *, #243, .T. ) ;
#223 = CC_DESIGN_DATE_AND_TIME_ASSIGNMENT ( #171, #6, ( #139 ) ) ;
#224 = VECTOR ( 'NONE', #318, 1000.000000000000000 ) ;
#225 = CARTESIAN_POINT ( 'NONE',  ( -14.00000000000000000, 0.0000000000000000000, 30.00000000000000000 ) ) ;
#226 = ORIENTED_EDGE ( 'NONE', *, *, #366, .T. ) ;
#227 = CARTESIAN_POINT ( 'NONE',  ( 14.00000000000000000, -27.00000000000000000, -1.065814103639999900E-014 ) ) ;
#228 = FACE_OUTER_BOUND ( 'NONE', #124, .T. ) ;
#229 = DIRECTION ( 'NONE',  ( -8.659560562354914400E-017, -0.7071067811865475700, 0.7071067811865475700 ) ) ;
#230 = ORIENTED_EDGE ( 'NONE', *, *, #149, .T. ) ;
#231 = PLANE ( 'NONE',  #247 ) ;
#232 = CC_DESIGN_PERSON_AND_ORGANIZATION_ASSIGNMENT ( #48, #189, ( #239 ) ) ;
#233 = FACE_OUTER_BOUND ( 'NONE', #195, .T. ) ;
#234 = CARTESIAN_POINT ( 'NONE',  ( 14.00000000000000500, -8.325187540310940500, 30.00000000000000000 ) ) ;
#235 = EDGE_CURVE ( 'NONE', #29, #197, #79, .T. ) ;
#236 = DIRECTION ( 'NONE',  ( -1.224646799147350000E-016, -1.000000000000000000, 0.0000000000000000000 ) ) ;
#237 = DIRECTION ( 'NONE',  ( -1.224646799147350000E-016, -1.000000000000000000, 0.0000000000000000000 ) ) ;
#238 = PERSON_AND_ORGANIZATION ( #69, #281 ) ;
#239 = PRODUCT_DEFINITION_FORMATION_WITH_SPECIFIED_SOURCE ( 'ANY', '', #357, .NOT_KNOWN. ) ;
#240 = DIRECTION ( 'NONE',  ( 0.0000000000000000000, -1.499759782661849900E-032, 1.000000000000000000 ) ) ;
#241 = EDGE_LOOP ( 'NONE', ( #59, #221, #43, #284 ) ) ;
#242 = CARTESIAN_POINT ( 'NONE',  ( 14.00000000000000000, -30.00000000000000000, 27.00000000000000000 ) ) ;
#243 = EDGE_CURVE ( 'NONE', #141, #272, #275, .T. ) ;
#244 = DIRECTION ( 'NONE',  ( -1.000000000000000000, 1.224646799147350000E-016, 0.0000000000000000000 ) ) ;
#245 = VECTOR ( 'NONE', #118, 1000.000000000000000 ) ;
#246 = ORIENTED_EDGE ( 'NONE', *, *, #243, .F. ) ;
#247 = AXIS2_PLACEMENT_3D ( 'NONE', #88, #61, #346 ) ;
#248 = VERTEX_POINT ( 'NONE', #234 ) ;
#249 = ADVANCED_FACE ( 'NONE', ( #84 ), #67, .T. ) ;
#250 = AXIS2_PLACEMENT_3D ( 'NONE', #351, #162, #240 ) ;
#251 = DATE_AND_TIME ( #348, #142 ) ;
#252 = AXIS2_PLACEMENT_3D ( 'NONE', #21, #175, #365 ) ;
#253 = VECTOR ( 'NONE', #286, 1000.000000000000000 ) ;
#254 = DIRECTION ( 'NONE',  ( 1.224646799147350000E-016, 1.000000000000000000, -0.0000000000000000000 ) ) ;
#255 = EDGE_LOOP ( 'NONE', ( #117, #8, #339, #276, #132, #12, #20, #345 ) ) ;
#256 = APPROVAL_PERSON_ORGANIZATION ( #321, #258, #219 ) ;
#257 = ORIENTED_EDGE ( 'NONE', *, *, #51, .T. ) ;
#258 = APPROVAL ( #36, 'UNSPECIFIED' ) ;
#259 = DIRECTION ( 'NONE',  ( -1.224646799147350000E-016, -1.000000000000000000, 0.0000000000000000000 ) ) ;
#260 = CARTESIAN_POINT ( 'NONE',  ( -14.00000000000000000, 1.285673212128732100E-047, 30.00000000000000000 ) ) ;
#261 = CARTESIAN_POINT ( 'NONE',  ( 14.00000000000000000, -30.00000000000000000, 30.00000000000000000 ) ) ;
#262 = DATE_AND_TIME ( #337, #163 ) ;
#263 = VERTEX_POINT ( 'NONE', #147 ) ;
#264 = ORIENTED_EDGE ( 'NONE', *, *, #274, .F. ) ;
#265 = PERSON_AND_ORGANIZATION ( #69, #281 ) ;
#266 = ORIENTED_EDGE ( 'NONE', *, *, #75, .F. ) ;
#267 = APPLICATION_CONTEXT ( 'configuration controlled 3d designs of mechanical parts and assemblies' ) ;
#268 = SECURITY_CLASSIFICATION_LEVEL ( 'unclassified' ) ;
#269 = CARTESIAN_POINT ( 'NONE',  ( 14.00000000000000000, -30.00000000000000000, -1.065814103639999900E-014 ) ) ;
#270 = PLANE ( 'NONE',  #312 ) ;
#271 = ORIENTED_EDGE ( 'NONE', *, *, #68, .F. ) ;
#272 = VERTEX_POINT ( 'NONE', #126 ) ;
#273 = DATE_TIME_ROLE ( 'classification_date' ) ;
#274 = EDGE_CURVE ( 'NONE', #279, #335, #140, .T. ) ;
#275 = LINE ( 'NONE', #341, #158 ) ;
#276 = ORIENTED_EDGE ( 'NONE', *, *, #366, .F. ) ;
#277 = AXIS2_PLACEMENT_3D ( 'NONE', #297, #120, #7 ) ;
#278 = LINE ( 'NONE', #150, #130 ) ;
#279 = VERTEX_POINT ( 'NONE', #353 ) ;
#280 = DIRECTION ( 'NONE',  ( 0.0000000000000000000, 0.0000000000000000000, 1.000000000000000000 ) ) ;
#281 = ORGANIZATION ( 'UNSPECIFIED', 'UNSPECIFIED', '' ) ;
#282 = FACE_OUTER_BOUND ( 'NONE', #176, .T. ) ;
#283 = AXIS2_PLACEMENT_3D ( 'NONE', #261, #1, #27 ) ;
#284 = ORIENTED_EDGE ( 'NONE', *, *, #99, .F. ) ;
#285 = MANIFOLD_SOLID_BREP ( 'Volumenk\X\F6rper1', #302 ) ;
#286 = DIRECTION ( 'NONE',  ( 1.224646799147350000E-016, 1.000000000000000000, -0.0000000000000000000 ) ) ;
#287 = CARTESIAN_POINT ( 'NONE',  ( 14.00000000000000000, -27.00000000000000000, -1.065814103639999900E-014 ) ) ;
#288 = LINE ( 'NONE', #314, #206 ) ;
#289 = VERTEX_POINT ( 'NONE', #5 ) ;
#290 = CC_DESIGN_APPROVAL ( #320, ( #139 ) ) ;
#291 = PLANE ( 'NONE',  #283 ) ;
#292 = DIRECTION ( 'NONE',  ( -1.000000000000000000, -0.0000000000000000000, 0.0000000000000000000 ) ) ;
#293 = LOCAL_TIME ( 17, 38, 5.000000000000000000, #108 ) ;
#294 = CARTESIAN_POINT ( 'NONE',  ( 14.00000000000000400, -27.00000000000000400, 5.299999999999987400 ) ) ;
#295 = ORIENTED_EDGE ( 'NONE', *, *, #169, .T. ) ;
#296 = ORIENTED_EDGE ( 'NONE', *, *, #104, .T. ) ;
#297 = CARTESIAN_POINT ( 'NONE',  ( 0.0000000000000000000, 0.0000000000000000000, 0.0000000000000000000 ) ) ;
#298 = APPROVAL_STATUS ( 'not_yet_approved' ) ;
#299 = CC_DESIGN_PERSON_AND_ORGANIZATION_ASSIGNMENT ( #89, #215, ( #329 ) ) ;
#300 = FACE_OUTER_BOUND ( 'NONE', #255, .T. ) ;
#301 = DIRECTION ( 'NONE',  ( 5.659263422131116500E-017, 0.7071067811865483500, 0.7071067811865468000 ) ) ;
#302 = CLOSED_SHELL ( 'NONE', ( #133, #196, #44, #356, #303, #304, #249, #106, #40, #330 ) ) ;
#303 = ADVANCED_FACE ( 'NONE', ( #300 ), #324, .F. ) ;
#304 = ADVANCED_FACE ( 'NONE', ( #282 ), #157, .T. ) ;
#305 = ORIENTED_EDGE ( 'NONE', *, *, #33, .F. ) ;
#306 = VECTOR ( 'NONE', #301, 1000.000000000000000 ) ;
#307 = DIRECTION ( 'NONE',  ( -0.0000000000000000000, 0.7071067811865474600, 0.7071067811865474600 ) ) ;
#308 = ORIENTED_EDGE ( 'NONE', *, *, #22, .T. ) ;
#309 = ORIENTED_EDGE ( 'NONE', *, *, #107, .T. ) ;
#310 = DIRECTION ( 'NONE',  ( 0.0000000000000000000, 0.7071067811865474600, 0.7071067811865474600 ) ) ;
#311 = CALENDAR_DATE ( 2022, 27, 11 ) ;
#312 = AXIS2_PLACEMENT_3D ( 'NONE', #242, #155, #71 ) ;
#313 = ORIENTED_EDGE ( 'NONE', *, *, #99, .T. ) ;
#314 = CARTESIAN_POINT ( 'NONE',  ( -14.00000000000000000, -27.00000000000000000, 5.299999999999990100 ) ) ;
#315 = CARTESIAN_POINT ( 'NONE',  ( 14.00000000000000000, 0.0000000000000000000, -1.065814103639999900E-014 ) ) ;
#316 = VECTOR ( 'NONE', #62, 1000.000000000000000 ) ;
#317 = ORIENTED_EDGE ( 'NONE', *, *, #127, .F. ) ;
#318 = DIRECTION ( 'NONE',  ( -1.000000000000000000, 0.0000000000000000000, -0.0000000000000000000 ) ) ;
#319 = PERSON_AND_ORGANIZATION_ROLE ( 'design_owner' ) ;
#320 = APPROVAL ( #298, 'UNSPECIFIED' ) ;
#321 = PERSON_AND_ORGANIZATION ( #69, #281 ) ;
#322 = PERSON_AND_ORGANIZATION_ROLE ( 'creator' ) ;
#323 = ORIENTED_EDGE ( 'NONE', *, *, #138, .F. ) ;
#324 = PLANE ( 'NONE',  #153 ) ;
#325 =( LENGTH_UNIT ( ) NAMED_UNIT ( * ) SI_UNIT ( .MILLI., .METRE. ) );
#326 = COORDINATED_UNIVERSAL_TIME_OFFSET ( 8, 0, .BEHIND. ) ;
#327 = FACE_OUTER_BOUND ( 'NONE', #198, .T. ) ;
#328 = EDGE_LOOP ( 'NONE', ( #81, #266, #46, #202 ) ) ;
#329 = SECURITY_CLASSIFICATION ( '', '', #268 ) ;
#330 = ADVANCED_FACE ( 'NONE', ( #42 ), #32, .T. ) ;
#331 = ORIENTED_EDGE ( 'NONE', *, *, #184, .T. ) ;
#332 = CC_DESIGN_APPROVAL ( #161, ( #329 ) ) ;
#333 = COORDINATED_UNIVERSAL_TIME_OFFSET ( 8, 0, .BEHIND. ) ;
#334 = LINE ( 'NONE', #55, #192 ) ;
#335 = VERTEX_POINT ( 'NONE', #37 ) ;
#336 = PLANE ( 'NONE',  #252 ) ;
#337 = CALENDAR_DATE ( 2022, 27, 11 ) ;
#338 = AXIS2_PLACEMENT_3D ( 'NONE', #210, #229, #177 ) ;
#339 = ORIENTED_EDGE ( 'NONE', *, *, #51, .F. ) ;
#340 = PLANE ( 'NONE',  #146 ) ;
#341 = CARTESIAN_POINT ( 'NONE',  ( -14.00000000000000000, -26.99999999999999600, -1.065814103639999900E-014 ) ) ;
#342 = CARTESIAN_POINT ( 'NONE',  ( -14.00000000000000000, -27.00000000000000000, 5.299999999999990100 ) ) ;
#343 = CALENDAR_DATE ( 2022, 27, 11 ) ;
#344 = ORIENTED_EDGE ( 'NONE', *, *, #75, .T. ) ;
#345 = ORIENTED_EDGE ( 'NONE', *, *, #85, .T. ) ;
#346 = DIRECTION ( 'NONE',  ( 1.000000000000000000, -1.224646799147350000E-016, 0.0000000000000000000 ) ) ;
#347 = CARTESIAN_POINT ( 'NONE',  ( 14.00000000000000000, 0.0000000000000000000, -1.065814103639999900E-014 ) ) ;
#348 = CALENDAR_DATE ( 2022, 27, 11 ) ;
#349 = VERTEX_POINT ( 'NONE', #98 ) ;
#350 = APPLICATION_CONTEXT ( 'configuration controlled 3d designs of mechanical parts and assemblies' ) ;
#351 = CARTESIAN_POINT ( 'NONE',  ( 14.00000000000000000, 0.0000000000000000000, 30.00000000000000000 ) ) ;
#352 = CARTESIAN_POINT ( 'NONE',  ( 13.99999999999999600, -30.00000000000000000, 8.325187540310990300 ) ) ;
#353 = CARTESIAN_POINT ( 'NONE',  ( 14.00000000000000500, -5.299999999999964300, 27.00000000000000400 ) ) ;
#354 = VERTEX_POINT ( 'NONE', #186 ) ;
#355 = APPROVAL_ROLE ( '' ) ;
#356 = ADVANCED_FACE ( 'NONE', ( #228 ), #270, .F. ) ;
#357 = PRODUCT ( '482523535_c_1', '482523535_c_1', '', ( #123 ) ) ;
#358 = LINE ( 'NONE', #225, #97 ) ;
#359 = ORIENTED_EDGE ( 'NONE', *, *, #107, .F. ) ;
#360 = VECTOR ( 'NONE', #170, 1000.000000000000000 ) ;
#361 = CARTESIAN_POINT ( 'NONE',  ( 13.99999999999999600, -30.00000000000000000, -1.065814103639999900E-014 ) ) ;
#362 = ORIENTED_EDGE ( 'NONE', *, *, #138, .T. ) ;
#363 = EDGE_CURVE ( 'NONE', #349, #289, #188, .T. ) ;
#364 = CARTESIAN_POINT ( 'NONE',  ( -14.00000000000000000, -8.325187540310940500, 30.00000000000000000 ) ) ;
#365 = DIRECTION ( 'NONE',  ( -1.224646799147350000E-016, -1.000000000000000000, 0.0000000000000000000 ) ) ;
#366 = EDGE_CURVE ( 'NONE', #354, #248, #148, .T. ) ;
#367 = CARTESIAN_POINT ( 'NONE',  ( 14.00000000000000000, 0.0000000000000000000, 27.00000000000000000 ) ) ;
#368 = VECTOR ( 'NONE', #31, 1000.000000000000000 ) ;
#369 = DIRECTION ( 'NONE',  ( 1.000000000000000000, -6.123233995736752500E-017, 6.123233995736752500E-017 ) ) ;
ENDSEC;
END-ISO-10303-21;
